The Splendour of Fear



Red indians
The world is as soft as lace
The optimist and the poet

Mexican bandits
The stagnant pool
A preacher in New England


RED INDIANS

Based on a Am (A minor) guitar chord
____________________________________________
Transcribed by: Tormod Bjontegaard


---------------------------------------------------------5------7------8------
---5------5------5------5------5------5------5------5------5------5------5----
-----5------5------5------5------5------5------5------5------5------5------5--
------------------------------------------------------------------------------
-0------0------0------0------0------0------0------0---------------------------
------------------------------------------------------------------------------

-7------5------7------8------7------5------7------8------7------5-----7-------
---5------5------5------5------5------5------5------5------5------5-----5-----
-----5------5------5------5------5------5------5------5------5------5-----5---
------------------------------------------------------------------------------
------------------------------------------------------------------------------
------------------------------------------------------------------------------

-8------7------------5-7-5---8-5---7-5---------5-7-5---8-5---7-5--------5-7---
---5------5--------5-------5-----5-----5-----5-------5-----5-----5----5-------
-----5------5----5-------------------------5------------------------5---------
------------------------------------------------------------------------------
------------------------------------------------------------------------------
------------------------------------------------------------------------------

-5---8-5---7-5--------5-7-5---8-5---7-5-0-------------------------------------
---5-----5-----5----5-------5-----5---------1-0-1-0-1-0-----------0-1-0-------
------------------5-------------------------------------2-----0-2--------2----
-----------------------------------------------------------2------------------
------------------------------------------------------------------------------
------------------------------------------------------------------------------

---------0-3-5--3h5p3-0---------------------0--3h5-5-5--3h5-5-5--3h5-5-5-0----
-1-0-1-3----------------3-1-0---0-1-0-----------------------------------------
------------------------------0-------2---2-----------------------------------
------------------------------------------------------------------------------
------------------------------------------------------------------------------
------------------------------------------------------------------------------

---0--3h5-5-5--3h5-5-5--3h5-5-5-0-----0--3h5-5-5--3h5-5-5--3h5-5-5-0-----0----
------------------------------------------------------------------------------
-2----------------------------------2----------------------------------2------
------------------------------------------------------------------------------
------------------------------------------------------------------------------
------------------------------------------------------------------------------

-3h5-5-5--3h5-5-5--3h5-5-5-0---5------7------8------7------5------7-----------
---------------------------------5------5------5------5------5------5---------
-----------------------------------5------5------5------5------5------5-------
------------------------------------------------------------------------------
------------------------------------------------------------------------------
------------------------------------------------------------------------------

-8------7------5------7------8------7------5------5-7-8--5--------------------
---5------5------5------5------5------5------5-----------5--------------------
-----5------5------5------5------5------5------5---------5--------------------
------------------------------------------------------------------------------
------------------------------------------------------------------------------
------------------------------------------------------------------------------


THE WORLD IS AS SOFT AS LACE

If I could I would change the world
But you know my visions they're absurd
And all my great plans get blurred
By the softest touch, the gentlest word

[Chorus]
I've said it before and I'll say it again
I will not believe until it is mine
Until it's mine, all mine, yeah mine

If I knew all about this world
Do you think I'd stay here that's absurd
I'd be the brightest star you heard
We'd be the softest lace on earth

[Chorus]
____________________________________________
Tabs transcribed by Tormod Bjontegaard

----10----12/15--14h15p14---------------10--------10--------------------------
-------10-----------------15-12---10h12-----10h12-----------10----------------
------------------------------------------------------11h12-----12p11---------
-12-------------------------------------------------------------------12------
------------------------------------------------------------------------------
------------------------------------------------------------------------------

--------0h2h3-----------0h2h3-2---------0---0h5---------2-3--2h3p2------------
--------------3------3----------3-----0----------3----0-------------3-------3-
----------------2-------------------------------------------------------2h4---
-12p9-7-----------0-----------------------------------------------------------
------------------------------------------------------------------------------
------------------------------------------------------------------------------

------------------------------------------------------------------------------
---------3-----------------10--------7-8--7h8p7-------------7h10--------------
-0---------------9b11b9--9----7-----------------7-------7h9-------------------
----5p4--------9------------------9-----------------7h9-----------------------
------------------------------------------------------------------------------
------------------------------------------------------------------------------

-------2-----------------2-----------------2-----------------2----------------
-----3-----3-----------3-----3-----------3-----3-----------3-----3----------3-
---2---------2-------0---------0-------2---------2-------0---------0------2---
-0---------------0-2---------------2-0---------------0-2--------------2-0-----
------------------------------------------------------------------------------
------------------------------------------------------------------------------

------------------------------------------------------------------------------
------3---------3-------3---------3-------3-----------------------------------
----0---0-----2-------0---0-----2-------0---0---------------------------------
-2----------0------2----------0------2------------------9h12--9---------------
---------------------------------------------------9h12---------12---9-9h12---
------------------------------------------------------------------------------
If I could....

------------------------------------------------------------------------------
--------10--------------------------------------------------------------------
------------11p9-----12\11-11\9-9\7-7\4-4\2-2/4-4/7-9/11----------------------
-9h12------------12---------------------------------------------9h12--9-------
-----------------------------------------------------------9h12---------12----
------------------------------------------------------------------------------

--------------12-10h12p10----------------------------------------10-----------
--------------------------10---12\10-10\8-8\7-7\5-5\3-3/5-5/7-10--------------
------------------------------------------------------------------------------
--------9h12------------------------------------------------------------------
-9-9h12-----------------------------------------------------------------------
------------------------------------------------------------------------------

------------------------------------------------------------------------------
------------------------------------------------------------------------------
--------------------------------12-11h12p11-----------------------------------
------9h12--9------------9h12---------------12-12\11-11\9-9\7-7\5-5\4-4\2-2/4-
-9h12---------12--9-9h12------------------------------------------------------
------------------------------------------------------------------------------

---------------------------------------------10--12\10-10\9-9\7-7\5-5\3-3\2---
------------------------------------------10----------------------------------
---------------------------------------11-------------------------------------
-5/7-------9h12--9---------------9h12-----------------------------------------
------9h12---------12--9/10\9h12----------------------------------------------
------------------------------------------------------------------------------

-2/3-5/7-------------10-7-----------2-3-5-2-----------------------------------
--------------8---10------8-------3---------3--3/5-5/7-7/8-8/10-10/12-12/15---
------------0---7---------------2---------------------------------------------
------------------------------0-----------------------------------------------
------------------------------------------------------------------------------
------------------------------------------------------------------------------
You said it before....

-------12---------------------------10--7h8p7-------2/7--5--------------------
----12-----15p12------------8----10----------8----3--------7------------------
-14---------------14p12---0----7----------------2------------7--7/9-9/14--11--
------------------------------------------------------------------------------
------------------------------------------------------------------------------
------------------------------------------------------------------------------

-----------------------------------------------10-----------------------------
-12-12----10----8----12p8-------------------10-----12---------------12--------
-------12----11---9--------9\7-------12---------------12------11-12-----------
-----------------------------------9----12-----------------12-----------------
------------------------------------------------------------------------------
------------------------------------------------------------------------------

------------------------------------------------------------------------------
-10h12p10-----------------------------------------------------------------8---
----------11----9-------------------------------------------------7---7-9---9-
-------------12------------------5--------------------------9p7-9---9---------
--------------------------7p5--7----7-5-7--5p2-0--2-0-------------------------
------------------------------------------------------3-----------------------

-------------7--12---10---15-14-----------------------------------------------
--8-10--8-10--------------------15--12--15------------------------------------
------------------------------------------------------------------------------
--------------------------------------------------9h12--9------------9h12-----
---------------------------------------------9h12---------12--9-9h12----------
------------------------------------------------------------------------------
If I knew...

------------------------------------------------------------------------------
-10---------------------------------------------------------------------------
----11p9---------12\11-11\9-9\7-7\4-4\2-2/4-4/7-9/11--------------------------
---------12--------------------------------------------------9h12-9-----------
--------------------------------------------------------9h12--------12-9------
------------------------------------------------------------------------------

-------------12--10h12p10---------------------------------------10------------
--------------------------10--12\10-10\8-8\7-7\5-5\3-3/5-5/7-10---------------
------------------------------------------------------------------------------
------9h12--------------------------------------------------------------------
-9h12-------------------------------------------------------------------------
------------------------------------------------------------------------------

------------------------------------------------------------------------------
------------------------------------------------------------------------------
--------------------------------12-11h12p11-----------------------------------
------9h12--9-------------9h12--------------12-12\11-11\9-9\7-7\5-5\4-4\2-2/4-
-9h12----------12--9-9h12-----------------------------------------------------
------------------------------------------------------------------------------

--------------------------------------------10-12\10-10\9-9\7-7\5-5\3-3\2-----
-----------------------------------------10-----------------------------------
--------------------------------------11--------------------------------------
-5/7-------9h12-9---------------9h12------------------------------------------
------9h12--------12--9/10\9h12-----------------------------------------------
------------------------------------------------------------------------------

-2/3--5/7------------10-7----------2-3-5-2------------------------------------
--------------8---10------8------3---------3--3/5-5/7-7/8-8/10-10/12-12/15----
------------0---7--------------2----------------------------------------------
-----------------------------0------------------------------------------------
------------------------------------------------------------------------------
------------------------------------------------------------------------------

-------12-------------------------10--7h8p7---------2/7--5--------------------
----12-----15p12-----------8---10-----------8-----3--------7------------------
-14--------------14p12---0---7------------------2------------7--7/9-9/14--11--
------------------------------------------------------------------------------
------------------------------------------------------------------------------
------------------------------------------------------------------------------

---------------------------------------------10-------------------------------
-12-12----10----8----12p8-----------------10-----12--------------12-10--------
-------12----11---9--------9\7-----12---------------12-----11-12-------11-----
---------------------------------9----12----------------12----------------12--
------------------------------------------------------------------------------
------------------------------------------------------------------------------

---------------------------------------------------------10-------------------
-------------12-12-----10----8---12p8-----------------10----12----------------
-------14-11--------12----11---9-------9\7------12-------------12-----11-12---
-12/14----------------------------------------9----12--------------12---------
------------------------------------------------------------------------------
------------------------------------------------------------------------------

------------------------------------------------------------------------------
-12-10h12p10------------------------------------------------------------------
-------------11----9----------12----------------------------------------------
----------------12---14p12-14-----14-12h14--12----------------------------12--
-----------------------------------------------14-12-14-12------14p12-14------
------------------------------------------------------------15----------------

----------------------------------------10-----12/15--14h15p14----------------
----------------------------12-------------10------------------15-12--10h12---
----------12----12-14-12-14---------------------------------------------------
----12h14----14----------------------12---------------------------------------
-14---------------------------------------------------------------------------
------------------------------------------------------------------------------

-10-------10---------------------------0h2h3-----------0h2h3p2p0------0--0h5--
----10h12----------10------------------------3------3------------3--0---------
-------------11h12----12p11--------------------2------------------------------
----------------------------12-12p9-7------------0----------------------------
------------------------------------------------------------------------------
------------------------------------------------------------------------------

------2-3-2h3p2---------------------------------------------------------------
--3-0-----------3-------3----------3--------------10--------7-8--7h8p7--------
--------------------2h4----0------------9b11b9--9-----7----------------7------
------------------------------5p4-----9------------------9----------------7h9-
------------------------------------------------------------------------------
------------------------------------------------------------------------------

----------------2---------------2----------------2----------------2-----------
-----7h10-----3----3----------3-----3----------3-----3----------3-----3-------
-7h9--------2--------2------0---------0------2---------2------0---------0-----
----------0-------------0-2--------------2-0--------------0-2--------------2--
------------------------------------------------------------------------------
------------------------------------------------------------------------------

------------------------------------------------------------------------------
-----3------3---------3-------3--------3------3-------------------------------
---2------0---0-----2-------0---0----2------0---0-----------------------------
-0-----2----------0------2---------0------2--------0--------------------------
------------------------------------------------------------------------------
------------------------------------------------------------------------------

_________________
Bass TAb by Narciso

Riff 1
E----------------------------------------------------------------------------------
A-7-7-7-7-7-7-7-7-7-7-7-7-7-7-7-7-3-3-3-3-3-3-3-3-3-3-3-3-3-3-3-3-
D---------------------------------------------------------------------------------
G---------------------------------------------------------------------------------
Riff 2
E-------------------------------------------------------------------------------
A-7-7-7-7-7-7-7-7-7-7-7-7-7-7-7-7-3-3-3-3-3-3-3-3-5-5-5-5-5-5-5-
D-------------------------------------------------------------------------------
G-------------------------------------------------------------------------------
Riff 3
E-------------------------------------------------------------
A-7-7-7-7-7-7-7-7-7-7-7-7-7-7-7-7-3-3-3-3-3-3-3-3-
D-------------------------------------------------------------
G-------------------------------------------------------------
Riff 4
E-----------------------------------------
A-7-7-7-7-7-7-7-7-3-3-3-3-3-3-3-3-
D-----------------------------------------
G-----------------------------------------
Riff 5
E------------------------------------------
A-7-7-7-7-7-7-7-7-3-3-3-3-3-3-3-3-
D-----------------------------------------
G-----------------------------------------
Riff 6
E-------------------------------------------------------------------------------------------------------------
A-7-7-7-7-7-7-7-7-7-7-7-7-7-7-7-7-7-7-7-7-7-7-7-7-7-7-7-7-7-7-7-7-7-7-7-7-3-3-3-3-3-3-3-3-
D-------------------------------------------------------------------------------------------------------------
G-------------------------------------------------------------------------------------------------------------
Riff 7
E-------------------------------------------------------------------------------------------------------------
A-7-7-7-7-7-7-7-7-7-7-7-7-7-7-7-7-7-7-7-7-7-7-7-7-7-7-7-7-7-7-7-7-7-7-7-7-3-3-3-3-3-3-3-3-5-5-5-5-5-5-5-5-
D-------------------------------------------------------------------------------------------------------------
G-------------------------------------------------------------------------------------------------------------
Riff 8
E----------------------------------------------------------------------------------
A-7-7-7-7-7-7-7-7-7-7-7-7-7-7-7-7-3-3-3-3-3-3-3-3-5-5-5-5-5-5-5-5-
D---------------------------------------------------------------------------------
G---------------------------------------------------------------------------------
Riff 9
E------------------------------------------------------------------------------------
A-7-7-7-7-7-7-7-7-7-7-7-7-7-7-7-7-3-3-3-3-3-3-3-3-5-5-5-5-5-5-5-5-7-
D-----------------------------------------------------------------------------------
G-----------------------------------------------------------------------------------
Riff 1 1X (00:00)
Riff 2 1X (00:11)
Riff 3 1X (00:21)
Riff 4 1X (00:29)
Riff 5 1X (00:34)
Riff 3 1X (00:42)
Riff 4 2X (00:50)
Riff 5 1X (00:56)
Riff 6 X (01:04)
Riff 5 4X (01:17)
Riff 7 1X (01:59)
Riff 8 X (02:20)
Riff 9 1X (08:08)


THE OPTIMIST AND THE POET

Bass TAb by Narciso

Riff 1
E-5-5-5-5-5-5-5-5-7-7-7-7-7-7-7-7-7-7-7-7-
A---------------------------------------------------
D---------------------------------------------------
G---------------------------------------------------
Riff 2
E-0------0----------------
A---------------5------5-
D-------------------------
G-------------------------
Riff 3
E-----5-5-5-5-5…
A-7/---------------
D------------------
G------------------
Riff 4
E-----------------
A-----------------
D-2-4-5-7-5-4-
G----------------
Riff 5
E----------------------
A---------------------
D-2-4-5-7-9-7-5-4-
G---------------------
Riff 6
E-5-5-5-5…
A------------
D------------
G------------
Riff 7
E-0-0-0-0-0-0-0-0-0-0-5-5-5-5-5-5-5-5-
A----------------------------------------------
D----------------------------------------------
G----------------------------------------------
Riff 8
E-5-5-5-5-5-5-5-5-5-5-5-5-5-5-5-5-5-5-0-
A------------------------------------------------
D------------------------------------------------
G------------------------------------------------
Riff 1 4X (00:00)
Riff 2 1X (00:32)
Riff 3 1X (00:48)
Riff 4 1X (01:00)
Riff 5 1X (01:05)
Riff 6 …X (01:08)
Riff 7 10X (02:40)
Riff 8 1X (03:28)


MEXICAN BANDITS

 

RIFF 1
|---------------------------------|
|-3-3-3-3-3-3-3-3-2-2-2-2-2-2-2-2-|
|---------------------------------|
|---------------------------------|
RIFF 2
|-----------------------------------------------------------------|
|-5-5-5-5-5-5-5-5-3-3-3-3-3-3-3-3-2-2-2-2-2-2-2-2-3-3-3-3-3-3-3-3-|
|-----------------------------------------------------------------|
|-----------------------------------------------------------------|
RIFF 3
|-0-0-0-0-0-0-0-0-5-5-5-5-5-5-5-5-|
|---------------------------------|
|---------------------------------|
|---------------------------------|
RIFF 4
|-0-0-0-0-0-0-0-0-5-5-5-5-5-5-5-5-5-5-5-5-5-5-5-5-|
|-------------------------------------------------|
|-------------------------------------------------|
|-------------------------------------------------|
RIFF 5
|-------------------------------------|
|-12/-3-3-3-3-3-3-3-3-2-2-2-2-2-2-2-2-|
|-------------------------------------|
|-------------------------------------|
RIFF 6
|-------------------------|
|-5-5-5-3-3-3-2-2-2-3-3-3-|
|-------------------------|
|-------------------------|
RIFF 1 4X (00:14)
RIFF 2 2X (00:28)
RIFF 1 4X (00:42)
RIFF 2 2X (00:56)
RIFF 3 2X (01:11)
RIFF 4 1X (01:18)
RIFF 5 1X (01:28)
RIFF 1 3X (01:32)
RIFF 2 2X (01:43)
RIFF 1 4X (02:04)
RIFF 2 2X (02:18)
RIFF 3 3X (02:33)
RIFF 4 1X (02:40)
RIFF 5 1X (02:50)
RIFF 1 3X (02:54)
RIFF 2 2X (03:05)
RIFF 6 4X (03:19)

Bass Tab: NARCISO (PT)


THE STAGNANT POOL

The stagnant pool,
Like a drowned coffin,
Still as a deceased heart,
Haunting the ghost of the noble crusader,
Who recalls pellucid ice clutching the aching twigs,
Never melting,
Never a drop to disturb stagnation.
Oh they say I'll never win
You'll always get beat
And like a drop of blood from the Devil's tap
I'm dragging the crusader behind
Slips purposely down the black hole back to hell
Steps purposely down the black hole back to hell
[Repeat]
____________________________________________
Tabs transcribed by Tormod Bjontegaard

Standard Tuning


-2--3-----2----3----2---3---5---3----2h3p2-0--------------0----2--3---2---0---
-3--3-----3----3----3---3---3---3--------------3p1--1-----3----3--3---3---3---
-2--2-----2----2----2---2---2---2-------------------------2----2--2---2---2---
-0--0-----0----0----0---0---0---0-------------------------0----0--0---0---0---
------------------------------------------------------------------------------
------------------------------------------------------------------------------
The stagnant pool, like a drowned


-0----0--2-----2--3---2-----3-----2---3----5---3---2h3p2-0--------------------
-3-3-----------3--3---3-----3-----3---3----3---3------------3p1-1-------------
-2-------------2--2---2-----2-----2---2----2---2------------------------------
-0-------------0--0---0-----0-----0---0----0---0------------------------------
------------------------------------------------------------------------------
------------------------------------------------------------------------------
coffin. Still as a deceased heart

0:17
------------------------------7----------------------------------------5------
-5--------5----------------7-----10-8-7--7h8p7-------------------7--7--7--8---
-----5----------5-------7-----------------------9---9--7--9--7---7--7--7--7---
-------------------7/9------------------------------9--9--9--9---7--7--7--7---
----------------------------------------------------7--7--7--7---5--5--5--5---
------------------------------------------------------------------------------
Haunting the ghost of the noble crusader.


------------------------------------------------------------------------------
-7h8p7\5--7------------------------5------5------5----------------------------
-------------7---7p5--5----5---5---5--7---5--7---5----7p5--5---5-----5--------
-----------------7-7--7----7---7---7--7---7--7---7----7-7--7---7-----7--------
-----------------7-7--7----7---7---7--7---7--7---7----7-7--7---7-----7--------
-----------------5-5--5----5---5---5--5---5--5---5----5-5--5---5-----5--------
Who recalls pellucid ice clutching the


------------------------------------------------------------------------------
-5------5-----7h8p7\5--7----------------5-----5-------------7--10-------------
-5--7---5-----------------7---7p5--5-------5-----5-------7--------------------
-7--7---7---------------------7-7--7----------------7/9-----------------------
-7--7---7---------------------7-7--7------------------------------------------
-5--5---5---------------------5-5--5------------------------------------------
aching twigs. Never a drop to disturb

0:42
---------------------------7--5-----------------------------------------------
--8--7h8p7-----------------------5--7h8p7p5--7---------7--8p7\5---------------
------------9---9-7--9-7--------------------------7/9------------7p5--5-------
----------------9-9--9-9-----------------------------------------7-7--7-------
----------------7-7--7-7-----------------------------------------7-7--7-------
-----------------------------------------------------------------5-5--5-------
stagnation. Oh they say


---------7-5h7p5\3-----------5------------------------7------5----------------
-7----8-------------5--7--8-----8--7h8p7p5----------------------8----------8--
---------------------------------------------7p5--5-----------------7---7-----
---------------------------------------------7-7--7---------------------------
---------------------------------------------7-7--7---------------------------
---------------------------------------------5-5--5---------------------------
I'll never win, you'll always get beat.


-10--------------------------------------------------------10--------7--------
--------7---------------------------------5------------7-------8h10-----10p8--
-----9--------7--9--7p5--5-------------5----5-------7-------------------------
-----------9--------7-7--7---------------------7/9----------------------------
--------------------7-7--7----------------------------------------------------
--------------------5-5--5----------------------------------------------------
And like a drop of blood from the devil's

1:04
---------------------------12-------------------------------------------------
----------------------------------12-12-----------------------------------8---
-7--7h9--9-9---7--7/9--12------12-12-12---9-11-12--11--11h12p11--9---7/9------
------------------------------------------------------------------------------
------------------------------------------------------------------------------
------------------------------------------------------------------------------
tap

1:15
--------------------------------------------------------7---------------------
-------------------------------8-------------7--7-8-10-----10-8-7-------------
-7-9--7-9--7--9---7-9--7-9--7--9---7-9--7-9--7----------------------7p5--5----
-7-9--7-9--7--9---7-9--7-9--7------7-9--7-9-------------------------7-7--7----
--------------------------------------------------------------------7-7--7----
--------------------------------------------------------------------5-5--5----


-------------7------------------------7-----------------------------7---------
----------7-----8----7-----7--8--10------7h8p7\5------------------7----8--7---
-------7----------------9--------------------------7p5--5-------7-------------
-7h9-----------------------------------------------7-7--7---7h9---------------
---------------------------------------------------7-7--7---------------------
---------------------------------------------------5-5--5---------------------
I'm dragging the crusader behind Slips purposely

1:23
-----10-----7-----------------------------12-12-12--14-15-14--14h15p14--12----
---7------7-----7----------7-8p7-8p7------------------------------------------
-9------9-----9-------7-9-------------9---------------------------------------
-------------------9----------------------------------------------------------
------------------------------------------------------------------------------
------------------------------------------------------------------------------
down the black hole back to hell,


-10p7-----------------7--------------10--7-8-----7------------------7-8-------
-------10p8---------8----10p8-----------------10---8-10-------8-10-------10---
-------------9--7/9------------9---9---------------------7-9------------------
------------------------------------------------------------------------------
------------------------------------------------------------------------------
------------------------------------------------------------------------------
steps purposely

1:36
-10-10-8-10--7-8--7-8-----7-----------10-------3--2--3---2--3--5--3--2h3p2p0--
----------------------10-------7-8-10----------3--3--3---3--3--3--3-----------
-----------------------------7-----------------2--2--2---2--2--2--2-----------
-----------------------------------------------0--0--0---0--0--0--0-----------
------------------------------------------------------------------------------
------------------------------------------------------------------------------
down the black hole back to hell.


-----------------------------7-------------------------12--------15p12--------
-3p1-1----------5----------7---10-8-7--7h8p7--------12-----------------15p12--
-2-2-2--------5---5------7-------------------9---9----------------------------
----------5h7--------7/9------------------------------------------------------
------------------------------------------------------------------------------
------------------------------------------------------------------------------
Steps purposely down the black hole back to hell.


----------------------------------------------------------12-12-12--10-10-10--
---------12----------------------------------------7--10--12-12-12--10-10-10--
-14---12----12--11-11-11--9-9-9--7-7-7-------7--9---------12-12-12--11-11-11--
------------------------------------------9-----------------------------------
------------------------------------------------------------------------------
------------------------------------------------------------------------------


-----------10--10--12--10----12p8---------------------------------------------
-7--8--10--10--10--10--10----------12/13\12p8---------------------------------
-7--9--11--11--11--11--11----------------------9------------------------------
------------------------------------------------------------------------------
------------------------------------------------------------------------------
------------------------------------------------------------------------------

2:19
-17--15--14--12------12p10----------------------------------------------------
----------------------------13---12--------12---------------------------------
-------------------------------------12/14-----14---12--11h12p11--9-----------
------------------------------------------------------------------------------
------------------------------------------------------------------------------
------------------------------------------------------------------------------

2:43
-17--15--14--12------12p10-------12p8-----------------------------------------
----------------------------13---------10---8--7h8p7---------10---------------
------------------------------------------------------9----------7--9---------
-----------------------------------------------------------------------9------
------------------------------------------------------------------------------
------------------------------------------------------------------------------


------------------------------------------------------------------------------
-8----7--------------------------10-----7------10p8---------------------------
---7----9--9p7-----------------------7-----9---------9---9p7------------------
---------------10--9------------------------------------------10--------------
---------------------9--10--7-------------------------------------------------
------------------------------------------------------------------------------


------------------------------------------------------------------------------
---7-8-7h8p7------------------------------------------------------------------
-7------------9---------------------------------------------------------------
------------------------------------------------------------------------------
------------------------------------------------------------------------------
------------------------------------------------------------------------------

3:14
------------------------------------------------------------------------------
-7-8---7-8--7-8---7-8--7-8---7-8--7-8---7-8--7-8---7-8---7-8--7-8---7-8--7-8--
------------------------------------------------------------------------------
------------------------------------------------------------------------------
------------------------------------------------------------------------------
------------------------------------------------------------------------------

3:35
---------7------7-----7------7-----7------7-----7------7----------------------
-7-8-10------10----10-----10----10-----10----10-----10----10-8--7-8--7-8------
------------------------------------------------------------------------------
------------------------------------------------------------------------------
------------------------------------------------------------------------------
------------------------------------------------------------------------------


------------------------------------------------------------------------------
-7-8--7-8--7-8--7-8---7-8--7-8---7-8--7-8---7-8---7-8--7-8---7-8--7-8---7-8---
------------------------------------------------------------------------------
------------------------------------------------------------------------------
------------------------------------------------------------------------------
------------------------------------------------------------------------------

4:21
-------------------------------------------7------7-----7------7-----7------7-
-7-8---7-8---7-8--7-8---7-8--7-8---7-8-10------10----10-----10----10-----10---
------------------------------------------------------------------------------
------------------------------------------------------------------------------
------------------------------------------------------------------------------
------------------------------------------------------------------------------


----7------7--10--12---10-12--10-12---12-12--10-12---12-12--10-12---12-12-----
-10-----10--------------------------------------------------------------------
------------------------------------------------------------------------------
------------------------------------------------------------------------------
------------------------------------------------------------------------------
------------------------------------------------------------------------------


-10-7------7-----7-----7-----7-----7-----7------7-----7------7----------------
--------10----10----10----10----10----10-----10----10-----10----10--8---7-8---
------------------------------------------------------------------------------
------------------------------------------------------------------------------
------------------------------------------------------------------------------
------------------------------------------------------------------------------

5:07
------------------------------------------------------------------------------
-7-8--7-8--7-8--7-8--7-8---7-8--7-8---7-8--7-8--------------------------------
------------------------------------------------------------------------------
-----------------------------------------------------5-7--5-7---5-7--5-7------
------------------------------------------------------------------------------
------------------------------------------------------------------------------


------------------------------------------------------------------------------
------------------------------------------------------------------------------
------------------------------------------------------------------------------
-5-7--5-7---5-7---5-7--5-7---5-7--5-7---5-7-7-9---7-9---9-9-7-5--7-7-5-7------
------------------------------------------------------------------------------
------------------------------------------------------------------------------


------------------------------------------------------------------------------
------------7-8--7-8---7-8--7-8---7-8--7-8---7-8---7-8--7-8---7-8--7-8--------
------------------------------------------------------------------------------
-7-7-5------------------------------------------------------------------------
-------7----------------------------------------------------------------------
------------------------------------------------------------------------------


---------7------7-----7---7-7----7---7-7----7------7--10--12------------------
-7-8--10-----10----10---------10---------10-----10----------------------------
------------------------------------------------------------------------------
------------------------------------------------------------------------------
------------------------------------------------------------------------------
------------------------------------------------------------------------------

6:18
-------------------------------------10---------------------------------------
---8--------------------8----------------8---8----------------------7---------
-9---0------------7---9---9---7---7------------9---------------9------7-------
----------------7---------------7----------------10---------10----------------
--------9-10-9--------------------------------------10---10--------------10---
------------------------------------------------------------------------------


--------------------------------------------------10--------------------------
-----------------8-------------------8----------------8---8-------------------
-----------7---9---0-----------7---9---9---7---7------------9---------------9-
---------7-------------------7---------------7----------------10---------10---
-9--9h10--------------9-10-9-------------------------------------10---10------
------------------------------------------------------------------------------


-----------------------7------------------------------------------------------
-7---------------------8------------------------------------------------------
---7---------------7---9------------------------------------------------------
-----------------7-----9------------------------------------------------------
-----10--9--9h10-------7------------------------------------------------------
------------------------------------------------------------------------------

6:51
-12h14h15p14p12----12h14h15p14-12-10-12---12p10-------------------------------
-------------------------------------------------13p12p10---12----------------
---------------------------------------------------------------12--9--12/14---
------------------------------------------------------------------------------
------------------------------------------------------------------------------
------------------------------------------------------------------------------


--------------------------------------------10-------------7-5h7p5------------
----------------------------10h12p8------------8--------------------8--7------
-12--11h12p11-----9---9h12-----------7-9---------7-----------------------7----
--------------12-------------------------------------8/10---------------------
------------------------------------------------------------------------------
------------------------------------------------------------------------------

7:14
------------------------------------------------------------------------------
----10--8-7h8p7-----------------------------------7h8p7----------12p10--------
-9--------------7-9--------------------------7h9----------7--9----------------
---------------------10-9-7---------------------------------------------------
-----------------------------10-9h10p9--7-------------------------------------
------------------------------------------------------------------------------


------------------12p10--8h10--7----------------------------------------------
----------------------------------8-10----7-8--7h8p7------------8h10-----7----
-12h14-11-------------------------------7-------------9---9h11--------7-----9-
----------12-14---------------------------------------------------------------
------------------------------------------------------------------------------
------------------------------------------------------------------------------

7:29
-12-------------------------7------------------------7--10/12----10-----------
----12------10---8---7----7----10--8p7-------7-8-10-----------12----10-12-----
-------12------9---9---9----------------7-9-----------------------------------
------------------------------------------------------------------------------
------------------------------------------------------------------------------
------------------------------------------------------------------------------

7:40
--------------------------------------------------------------12--------------
----10-------------------------------------------7h8p7-----------10-----------
-12-----11-12--9-11--------9--11h12p11--9---7h9---------7-9---------9---------
---------------------9h12----------------------------------------------12/14--
------------------------------------------------------------------------------
------------------------------------------------------------------------------


------------------------12p10h12---12/15--14------12h15p12--------------------
----12----12---------------------------------15-------------15p12-------------
-------------------------------------------------------------------14--12-----
-14----14-----12/14-14-----------------------------------------------------14-
------------------------------------------------------------------------------
------------------------------------------------------------------------------

7:51
-----------------------------10--12--15--12------------------12---------------
----------------------10-12-------------------10h12p10----------10--8h10p8----
----------------9-12------------------------------------12-----------------11-
-12--14---9h12----------------------------------------------------------------
------------------------------------------------------------------------------
------------------------------------------------------------------------------


-10---------------------------------------------------------------------------
-----8h10p8-----------8h10h12--8-------------------8h10h12--8--------10-------
------------11--9h12--------------9---9---9--9h12--------------9---9----9-----
------------------------------------9---9------------------------9------------
------------------------------------------------------------------------------
------------------------------------------------------------------------------

8:01
------------------------------------------------------------------------------
-----7-8-7-------------10-----------------------------------------------------
-7-9-------7-9---9---7----9-------------------------------9--7----------------
-------------------9-------------9h12-------------------9---------------------
---------------------------------------10h12--9--10--10---------10-9-10-------
------------------------------------------------------------------------------


---------7----------------------------0---------------------10--8--7----------
-------8----10--8--8h10p8-----------8-------8------------10-----------10------
--------------------------9-------9------9----9--------7----------------------
--------------------------------9---------------9----7------------------------
-9-10-------------------------------------------------------------------------
------------------------------------------------------------------------------


------------------------------------------------------------------------------
-8h10--7----------------------------------------------------------------------
----------7-9-----------------------------------------------------------------
------------------------------------------------------------------------------
------------------------------------------------------------------------------
------------------------------------------------------------------------------

____________________
Bass TAb by Narciso

Riff 1
E----------------------------------------------------------------------
A-7-7-7-7-7-7-7-7-7-7-7-7-7-7-7-7-3-3-3-3-3-3-3-3-3-3-3-3-3-3-3-3-
D----------------------------------------------------------------------
G----------------------------------------------------------------------
Riff 2
E--------------------------------------------------------------------
A-7-7-7-7-7-7-7-7-7-7-7-7-7-7-7-7-3-3-3-3-3-3-3-3-5-5-5-5-5-5-5-
D-------------------------------------------------------------------
G-------------------------------------------------------------------
Riff 3
E----------------------------------------------------
A-7-7-7-7-7-7-7-7-7-7-7-7-7-7-7-7-3-3-3-3-3-3-3-3-
D-----------------------------------------------------
G----------------------------------------------------
Riff 4
E------------------------------------
A-7-7-7-7-7-7-7-7-3-3-3-3-3-3-3-3-
D------------------------------------
G------------------------------------
Riff 5
E--------------------------------------
A-7-7-7-7-7-7-7-7-3-3-3-3-3-3-3-3-
D-------------------------------------
G-------------------------------------
Riff 6
E------------------------------------------------------------------------------------------------
A-7-7-7-7-7-7-7-7-7-7-7-7-7-7-7-7-7-7-7-7-7-7-7-7-7-7-7-7-7-7-7-7-7-7-7-7-3-3-3-3-3-3-3-3-
D------------------------------------------------------------------------------------------------
G------------------------------------------------------------------------------------------------
Riff 7
E-----------------------------------------------------------------------------------------------------------------
A-7-7-7-7-7-7-7-7-7-7-7-7-7-7-7-7-7-7-7-7-7-7-7-7-7-7-7-7-7-7-7-7-7-7-7-7-3-3-3-3-3-3-3-3-5-5-5-5-5-5-5-5-
D-----------------------------------------------------------------------------------------------------------------
G-----------------------------------------------------------------------------------------------------------------
Riff 8
E-------------------------------------------------------------------------
A-7-7-7-7-7-7-7-7-7-7-7-7-7-7-7-7-3-3-3-3-3-3-3-3-5-5-5-5-5-5-5-5-
D------------------------------------------------------------------------
G------------------------------------------------------------------------
Riff 9
E--------------------------------------------------------------------------
A-7-7-7-7-7-7-7-7-7-7-7-7-7-7-7-7-3-3-3-3-3-3-3-3-5-5-5-5-5-5-5-5-7-
D--------------------------------------------------------------------------
G--------------------------------------------------------------------------
Riff 1 1X (00:00)
Riff 2 1X (00:11)
Riff 3 1X (00:21)
Riff 4 1X (00:29)
Riff 5 1X (00:34)
Riff 3 1X (00:42)
Riff 4 2X (00:50)
Riff 5 1X (00:56)
Riff 6 X (01:04)
Riff 5 4X (01:17)
Riff 7 1X (01:59)
Riff 8 X (02:20)
Riff 9 1X (08:08)