The Pictorial Jackson Review



Apple Boutique
Ivory Past
Until The Fools Get Wise
Bitter End
How Spook Got Her Man
Christopher St
Under A Pale Light
Don't Die On My Doorstep

APPLE BOUTIQUE

I said where you going
with that halo stuck around your golden head
you said what's the point in talking
everything has already been said
I don't know why
you said seasons change I hope I never will
you said why you carrying that mirror
always looking at yourself
I said while you're up there
can you get me that old book down from the shelf
I don't know why
you said what's the point in talking to yourself
all the time


IVORY PAST

Maybe I should wait for the summer or more
maybe three months even four
you see because my life is like a door
that's swinging from a latch
maybe I should wait for the winter or more
maybe three years even four
you see because your mind is changing fast
you're living in the past
maybe I should wait 'till the autumn has gone
'cause I sense something wrong
I feel it's in your mind that's changing fast
your living in the past


UNTIL THE FOOLS GET WISE

Intro chords: D-Dsus4*-Dsus2**
D-G
C-D-G

* 0-0-0-2-3-3
**0-0-0-2-3-0

Guitar1:
e|------------------------------------------------------------|
B|------------------------------------------------------------|
G|------------------------------------------------------------|
D|-------------------------------------4h5-4--2--0------------|
A|--4h5---3-2-3----3--2-0------0------------------------------|
E|-----------------------------3------------------------------|

Guitar2:
e|--3-2----------------------3-2-----------2-2h3-----3-5-7-7h8----7---2-2h3--|
B|---------3-0---1-4h5-3--------3-0--3---------------------------------------|
G|---------------------------------------------------------------------------|
D|---------------------------------------------------------------------------|
A|---------------------------------------------------------------------------|
E|---------------------------------------------------------------------------|

e|--2h3-2------------------3-2---------2-2h3-------------------------|
B|---------3-0--1-4h5-3-------3-0--3---------------------------------|
G|-------------------------------------------------------------------|
D|-------------------------------------------------------------------|
A|-------------------------------------------------------------------|
E|-------------------------------------------------------------------|

I don't want to believe
'till I've seen it with my own eyes
I don't ever want to surmise
'till the fools get wise
I don't care about time
have no interest in the sublime
underground will never rise
'till the fools get wise
I see through your disguise
I won't ever compromise
don't want to hear any more of your lies
until you fools all get wise


BITTER END

G|--2---------------0-0h2--2--2h4--2------------------------------|
D|--0---0-2-4---4-----------------------5h4-5h4-------------------|
A|----------------------------------------------------------------|
E|----------------------------------------------------------------|

G|------------------0-0h2--2-------------0-0h2---2--2h4-2----------|
D|--0---0-2-4---4-----------4--0-----4-----------------------------|
A|-----------------------------------------------------------------|
E|-----------------------------------------------------------------|

E|------------------------------------------------------------------------|
B|------3--3--5x--3-------3-----------------------------------3---5x----3-|
G|-2-4---------------4--2----4--2-0-----------------0-2--4----------------|
D|-------------------------------------4--0----0-2-4----------------------|
A|------------------------------------------------------------------------|
E|------------------------------------------------------------------------|

Solo:
E|-----------------------2-5-----7-5-3-2---------------------------------|
B|------3--3-3--5x--3---------3-3-3-3-3----------------------------------|
G|-2h4-------------------------------------------------------------------|
D|-----------------------------------------------------------------------|
A|-----------------------------------------------------------------------|
E|-----------------------------------------------------------------------|

E|-----------------------2-5-----3-2-0-2------3-2-0-2--------------------|
B|------3--3-3--5x--3---------3-3-3-3-3---3-3-3-3-3----------------------|
G|-2h4-------------------------------------------------------------------|
D|-----------------------------------------------------------------------|
A|-----------------------------------------------------------------------|
E|-----------------------------------------------------------------------|

E|--------10--10-10-12x-10--------10----------------------------|
B|-10h12--------------------12--10----12-10---------------------|
G|-----------------------------------------------12-11----------|
D|------------------------------------------------------12------|
A|--------------------------------------------------------------|
E|--------------------------------------------------------------|

E|---------------------------------------------------------------|
B|---------------------------------------------------------------|
G|---------------------------------------------------------------|
D|--------------------12-14x--12-14x--12-12----------------------|
A|---------9-10--12----------------------------------------------|
E|--10-12--------------------------------------------------------|

 

 

If I was to say that the stars
are never gonna shine
then I would be saying
the world never could be mine
I'm saying the world never could be mine
mesmerised by thoughts
of a time when you were young
still holding onto old attitudes
that you knew were wrong
they're old attitudes and you know they're wrong
you slashed a knife across it
and claimed that it wasn't mine
you said you'll kill someone
but the only thing you kill is time
I said that the only thing you'll kill is time
I'm steering clear of you
even though you're my only friend
I feel change coming on
and it feels like the bitter end
I said that it feels like the bitter end
I said here it comes
it's the bitter end


HOW SPOOK GOT HER MAN

I was going to be like royalty
I was going to come to the throne
I was going to be a personality
I was going to be so well known
what went wrong I don't know
I was going to be a personality
and be so well known
I was going to be like royalty
and come to the throne
I was going to do it all on my own
I felt chains around my hands
I was bound like a slave
I was forced against my will
then I was slung in my grave
my soul could not be saved
if you want to do what you said you'll do
follow through your own plan
throw away the key get him underneath your spell
catch him if you can
that's how Spook got her man


CHRISTOPHER ST

Monday's out of bounds
and Tuesday's free
but Wednesday's school
well if you want to come round we'll go down
you can hide away
you can hide yourself away
if you want to come round we'll go down
I just want to see you
we can meet on Christopher St.
if you want to come round we'll go down


UNDER A PALE LIGHT

I tell you I won't say a thing
I tell you man this bird won't sing
you're cooking up under a pale light
spent your day waiting for the night
and when he walks on into the room
what will you do
I see your face all change
like the avenue of expectancy you came through
you're like a cut that's going to scar
you're going to push me a bit to far
you're shooting up now to the stars
you're gonna end up behind bars
you set your sights on heights
that are far to steep to reach
you're sliding down the scale
that'll lead you into misery and grief


DON'T DIE ON MY DOORSTEP

Guitar chords:G-Am-C
Var: G-C / Em-C

Don't die on my doorstep
can't you crawl to another town
don't lie just take one more step
I want to see the sun go down
don't cry
don't die on my doorstep
still want to hear your point of view
don't lie just take one more step
I want to see the back of you
don't cry