Crumbling the Antiseptic Beauty



Evergreen dazed
Fortune
Birdmen
Cathedral
I worship the sun
Templeroy

EVERGREEN DAZED

Chords: Fmaj7 - Em right
neither right - or both right
F maj7 Em
later on there is a passage of Am Em

Chords by a010aa

FORTUNE

And nothing seems to matter
When I'm on your side
I'm breaking my back
Then you lost your pride
And if it all gets too much
There's things you can do
To end it all now
Or see it all through

And give me no words
There's things to be said
To escape with a fortune
Your blood will be spared
And wisdom is your virtue
I heard them all scream
Led away to their own fates
I believe in your dreams

Poor people on the issue
Come fight for what's right
Go take what's yours
On the day of your voice
I need you, oh
oh, and those ghastly terms,
A special fear
and it's me and a friend
Left in a room
Just me and a friend
(out of this place now! or else we're never gonna get out of here)
Just left in a room,
That's all

Different lyrics from the Gold mine trash version

CHORDS: Am; Fm

BIRDMEN

A messenger reads
from the books of old
And how come they never stop
That's what we said
Inscriptions proclaim
that they were wrote for us
The servant arrives
As he ...?
Can we die
Or if we stay
And how can you catch
...?
And how can you watch
...? all your friends
How can we guide this day
To become a day when we talk - no more
To become a day when we steal - what's more
To become what we were looking for
A ? walks
from the past he talk
... ?
... ?
And we can live ? outer space
... ?
A ? rides
He's got glass in his eyes
The fancy dress begins
Colonels in disguise
And how can you tell
A man goes overboard
And how can you tell
A man has lost his mind
And how can we guide this day
To become a day when we talk - no more
To become a day when we steal - what's more
To become what we were looking for - no more

CATHEDRAL

When the choice is mine I hope I make it
When the chance comes by the time is right
Door in the wall I see it open
And does it make you feel all right in the night?
[Repeat]
Does it make you feel - in the night

Why are all the fields so bright in the night?
When the light's all gone I'll know it's over
I won't try and forget the things I've done
Search for the truth from within
Searching for the real truth in the night
Search for the truth - in the night
Well-wishers stand on the hills in the night

CHORDS: G#; F#

I WORSHIP THE SUN

You turn here to stand here now
Stay focused on ...?
Could stop at changing the world
...? my hands were untied

[Chorus]
You're trying to tell the folks are the same
You can act like you're changing your name
I'm moving fast it's my legs to blame
You think it's silly but it's such a shame
I know why you're telling it all
You think it's safe to be so unsure
I could tell you things that sound so true
And I could shoot you for your money

Take a trip there
To where you go
Take a trip there
See the folks you know
Sick and tired of
It's just an attitude
Sick and tired of your stupid ideas
You need ...? the sky
And you ...?
I keep searching those ? eyes
Who ...? from the sun

[7 lines of chorus]

And I've heard enough [?]

_________________________________________

Tabs transcribed by: Tormod Bjontegaard

Tune all strings up about half a semitone

------------------------------------------------------------------------------
--------------5-3---------------------------5-3----3-------------------5-3----
----3---5--3------5-3-------------3---5--3------5----3-------3----5--3-----5--
-5----5----------------3---3---5----5------------------3---5---5--------------
-------------------------5----------------------------------------------------
------------------------------------------------------------------------------

------------------------------------------------------------------------------
------------------------5-3----3-----------------8-7------------8-7-----------
-3------------3----5--3-----5----3---------7h8p7---------7h8p7----------------
----3---3---5---5------------------3----7-------------7--------------10-------
------5-----------------------------------------------------------------------
------------------------------------------------------------------------------

------------------------------------------------------------------------------
-----------8-7--------------8-10--7--------------8-7------------8-7-----------
----7h8p7------------7h8p7-----------------7h8p7---------7h8p7----------------
-7----------------7---------------------7-------------7--------------10-------
------------------------------------------------------------------------------
------------------------------------------------------------------------------

----------------------------------7-8-----------------------------------------
-----------8-7--------------8-10-------------------------5---3----------------
----7h8p7------------7h8p7------------------3----5----3-----------5-3---------
-7----------------7---------------------5-----5-------------------------3---3-
--------------------------------------------------------------------------5---
------------------------------------------------------------------------------
You turn here to stand here now.

------------------------------------------------------------------------------
----------------5---3------3-----------------------------5---3----------------
---3----5----3---------5-----3-------------3-----5----3-----------5---3-------
-5---5-------------------------3--------5----5--------------------------------
------------------------------------------------------------------------------
------------------------------------------------------------------------------
Stay focused on.... Could stop at changing the world

------------------------------------------------------------------------------
------------------------5-----3--------3---------3/8----9----8-------9----8---
-----------3----5----3-------------5-----3-------3/8--8---10----10p8---10-----
-3---3---5---5-----------------------------3-----3/8--------------------------
---5--------------------------------------------------------------------------
------------------------------------------------------------------------------
... my hands were untied.

-----------------------------------------------11-9-8-------------------------
------------11-9-8-------9----8--------9----8----------11-9-8-----------8---7-
-8---------------------8---10-----10p8---10-------------------10------7---9---
---11-10-8-----------8----------------------------------------------7---------
------------------------------------------------------------------------------
------------------------------------------------------------------------------

------------7----------------5----5---7---7-----------------------------------
-----8---7----10----8--------5--5-------7----------8---7-------8---7----------
-9p7---9---------9----7------6-------------------7---9----9p7----9-----7------
------------------------9----7-----------------7-------------------------10---
-----------------------------7------------------------------------------------
-----------------------------5------------------------------------------------

------------------------------------------------------------------------------
--------7-------------------------------------------5------3------------------
-7----7---7-------------------3---------5-------3--------------5---3----------
---9--------7--9------5--------------5--------------------------------3---3---
------------------------------------------------------------------------5-----
------------------------------------------------------------------------------
You're trying to tell me the things are the same.

------------------------------------------------------------------------------
---------------------------5--3----------3------------------------------------
----3------5--------3---------------5------3--------------3------5------------
-5-------5-----------------------------------3------5---------5---------------
------------------------------------------------------------------------------
------------------------------------------------------------------------------
You can act like you're changing your name. I'm moving fast it's

------------------------------------------------------------------------------
----5-3------------------------------------------------5-3-----3--------------
-3-------5--3----------------3----------5-----3-------------5----3------------
---------------3---3----5----------5-------------------------------3----------
-----------------5------------------------------------------------------------
------------------------------------------------------------------------------
my legs to blame. You think it's silly but it's such a shame.

------------------------------------------------------------------------------
-------------------5-3-------------------------------------------5--3---------
---3----5---3--------------5--3---------------3----------5----3---------------
-5----5-------------------------3---3----5----------5-------------------------
----------------------------------5-------------------------------------------
------------------------------------------------------------------------------
I know why you're telling it all. You think it's safe to be so

------------------------------------------------------------------------------
---3---------------------------5------3---------------------------------------
-5---3---------3-----5------3--------------5-----3----------------3-----------
-------3-----5----5---------------------------------3---3----5------5---------
------------------------------------------------------5-----------------------
------------------------------------------------------------------------------
unsure. I could tell you things that sound true. And I could

------------------------------------------------------------------------------
---------------5-3---3-----------7---------8----7---------------8-7-----------
-5---------3-------5---3---------7--7h8p7----------------7h8p7----------------
-------------------------3-------7--------------------7--------------10-7-----
------------------------------------------------------------------------------
------------------------------------------------------------------------------
shoot you for your money. Take a trip there, to where you go.

------------------------------------------------------------------------------
--------8----7---------------8----10---7-----------------8-----7--------------
-7h8p7----------------7h8p7---------------------7h8p7------------------7h8p7--
-------------------7-------------------------7--------------------7-----------
------------------------------------------------------------------------------
------------------------------------------------------------------------------
Take a trip there, see the folks you know. Sick and tired of it's just

-------------------------------------------7-8--------------------------------
-8-7----------------8----7-----------8-10-----------------------5-3-----------
-----------7h8p7---------------7h8p7-----------------3----5--3------5-3-------
-----10--7-------------------7---------------------5---5----------------3---3-
--------------------------------------------------------------------------5---
------------------------------------------------------------------------------
attitude. Sick and tired of your stupid ideas. .....

------------------------------------------------------------------------------
--------------5-3----3-----------------5-3-----------------------5-3---3------
----3----5-3------5----3-------3---5-3-----5-3-----------3---5-3-----5---3----
--5---5------------------3---5---5--------------3---3--5---5---------------3--
--------------------------------------------------5---------------------------
------------------------------------------------------------------------------

-----3-----------------3--6p3-------------------3-----------------3--6p3------
---4---4-------------4---------6p4----4-------4---4-------------4--------6p4--
-5-------5------3--5----------------5----3--5-------5------3--5---------------
------------3-5----------------------------------------3-5--------------------
------------------------------------------------------------------------------
------------------------------------------------------------------------------

------------------------------------------------------------------------------
---4--------4--------4--------4--------4-------4-------4-------4-------4------
-5---5----5---5----5---5----5---5----5---5---5---5---5---5---5---5---5---5----
--------6--------5--------4--------3-------6-------5-------4-------3----------
------------------------------------------------------------------------------
------------------------------------------------------------------------------

-----------------------------------------------8------------------------------
-5---5---6---6---7---7--------8--8---8---9---9----11-----8--------------------
-5-5-----5-5-----7-7---7----7----8-8-----8-8---------10----8-------8--8h10p8--
-5-------5-------7--------9------8-------8--------------------8h10------------
------------------------------------------------------------------------------
------------------------------------------------------------------------------

-----------------5--7-5--------------------------------5--7-5------8-8p5------
-9-----8-------6--------6----5---------------6-------6--------6----------8p6--
---10----8---7------------7----5------5--5h7---7---7------------7-------------
----------------------------------5h7-----------------------------------------
------------------------------------------------------------------------------
------------------------------------------------------------------------------

----------------5--7-5------------------------------5--7-5------8-----5-------
---6----------6--------6----5--------------6------6--------6------6-----6-----
-7---7-5--5h7------------7----5------5-5h7---7--7------------7------7-----7---
---------------------------------5h7------------------------------------------
------------------------------------------------------------------------------
------------------------------------------------------------------------------

--------------------------3--------3-------------------3-----------------3----
-5-6---------5--6--7----5--------5------6--3---------5------6-3--------5------
-----5-7--------------------0--------0-------3---3-2-----0------3--3-2-----0--
------------------------------------------------------------------------------
------------------------------------------------------------------------------
------------------------------------------------------------------------------

-----------3---------------------------3-----------------3--6p3---------------
---3-6---5--------3-6----6-5---------4---4-------------4--------6p4----4------
-3-----------0--3------------5-----5-------5------3--5---------------5---3----
----------------------------------------------3-5-----------------------------
------------------------------------------------------------------------------
------------------------------------------------------------------------------

-----3-----------------3--6p3-----------------3-----------------3--6p3--------
---4---4-------------4--------6p4----4------4---4-------------4--------6p4----
-5-------5------3--5---------------5---3--5-------5------3--5-----------------
------------3-5--------------------------------------3-5----------------------
------------------------------------------------------------------------------
------------------------------------------------------------------------------

------------3-----------------3--6p3------------------3-----------------3-----
---4------4---4-------------4--------6p4----4-------4---4-------------4-------
-5---3--5-------5------3--5---------------5---3---5-------5------3--5---------
-------------------3-5---------------------------------------3-5--------------
------------------------------------------------------------------------------
------------------------------------------------------------------------------

-6p3--------------------------------------------------------------------------
-----6p4---4---------4-------4-------4-------4--------4-------4-------4-------
-------------5-----5---5---5---5---5---5---5---5----5---5---5---5---5---5-----
---------0-------6-------5-------4-------3--------6-------5-------4-----------
------------------------------------------------------------------------------
------------------------------------------------------------------------------

------------------------------------------------------8-----------------------
-----4------5---5--6---6--7---7-------8--8---8--9---9----11----8--------------
---5---5----5-5----5-5----7-7---7---7----8-8----8-8---------10---8-------8----
-3----------5------5------7-------9------8------8-------------------8h10------
------------------------------------------------------------------------------
------------------------------------------------------------------------------

------------------------------------------------------------------------------
---------9----8------------------8-7------------8-7----------------8-7--------
-8h10p8----10---8---------7h8p7----------7h8p7--------------7h8p7-------------
------------------------7--------------7-------------10--7--------------7-----
------------------------------------------------------------------------------
------------------------------------------------------------------------------

------------------------------------------------------------------------7-8---
--------8-10-7------------8-7-----------8-7------------8-7---------8-10-------
-7h8p7-------------7h8p7---------7h8p7-----------7h8p7-------7h8p7------------
-----------------7------------7-------------10-7-----------7------------------
------------------------------------------------------------------------------
------------------------------------------------------------------------------

------------------------------------------------------------------------------
-------------------------------5------3---------------------------------------
---------3---------5-------3--------------5---3-------------------------------
-5--------------5--------------------------------3---3------------------------
---------------------------------------------------5--------------------------
------------------------------------------------------------------------------
You're trying to tell me the things are the same.

------------------------------------------------------------------------------
---------------------------5--3----------3------------------------------------
----3------5--------3---------------5------3--------------3------5------------
-5-------5-----------------------------------3------5---------5---------------
------------------------------------------------------------------------------
------------------------------------------------------------------------------
You can act like you're changing your name. I'm moving fast it's

------------------------------------------------------------------------------
----5-3------------------------------------------------5-3-----3--------------
-3-------5--3----------------3----------5-----3-------------5----3------------
---------------3---3----5----------5-------------------------------3----------
-----------------5------------------------------------------------------------
------------------------------------------------------------------------------
my legs to blame. You think it's silly but it's such a shame.

------------------------------------------------------------------------------
-------------------5-3-------------------------------------------5--3---------
---3----5---3--------------5--3---------------3----------5----3---------------
-5----5-------------------------3---3----5----------5-------------------------
----------------------------------5-------------------------------------------
------------------------------------------------------------------------------
I know why you're telling it all. You think it's safe to be so

------------------------------------------------------------------------------
---3---------------------------5------3---------------------------------------
-5---3---------3-----5------3--------------5-----3----------------3----5--3---
-------3-----5----5---------------------------------3---3----5------5---------
------------------------------------------------------5-----------------------
------------------------------------------------------------------------------
unsure. I could tell you things that sound true. And I've heard

--3-3-3-3---------------------------------------------------------------------
------------------------------------------------------------------------------
------------------------------------------------------------------------------
------------------------------------------------------------------------------
------------------------------------------------------------------------------
------------------------------------------------------------------------------
enough.


TEMPLEROY (tabs)

Intro:

||---------------------------------|
||---------------------------------|
||---2------2----------------------|
||-----2--2--2--2------------------| (repeat)
||-------0-----0-------------------|
||---------------------------------|